Steve VaiFor the love of GodPassion as well as War 1990I saw there were a couple of tabs that were somewhat incorrect for this track, particularly the fingering.Tablature Tale ---------------- h - hammer-on p - pull-off b - bend pb - pre-bend r - bend launch (if no number after the r, then launch instantly)/ \ - slide right into or out of (from/to "no place") s - legato slide S - change slide - all-natural harmonic - fabricated harmonicn(n) - touched harmonic ~ - vibrato tr - trill T - faucet TP - trem. choosing PM - hand silencing \ n/ - tremolo bar dip; n = total up to dip \ n - tremolo bar down n/ - tremolo bar up/n \ - tremolo bar upside down dip = - hold bend; likewise works as attaching gadget for hammers/pulls - quantity swell (louder/softer) x - on rhythm lower stands for low-key reduce o - on rhythm lower stands for solitary note reduce============================================================================Intro/First style (Ideal used neck pick-up)
|-----------------------------------------------------------|| ---------- 10-- 10s12 ~-- 17s15-- 12 ----------------- 15p10 ~--|| ------- 7 --------------------------- 12-- 14-- 14s16 -----------||-- 7s9 ------------------------------------------------------|| -----------------------------------------------------------|| -----------------------------------------------------------|* PLAY THIS SPLIT TWO TIMES ^ ^ ^ *
|-----------------------------------------------------------|| ---------- 10-- 10s12 ~-- 17s15-- 12 ----------------- 15p10 ~--|| ------- 7 -------------------------- 12-- 14-- 14s16 ------------||-- 7s9 ------------------------------------------------------|| -----------------------------------------------------------|| -----------------------------------------------------------|
|-----------------------------------------------------------------------||-- 17s15-- 12 --------------------------------------- 5s8-- 7 ---------------|| ------------- 12-- 14-- 14s16 ~-- 16-- 16-- 16s14-- 14 ~ ----------- 9-- 7-- 7s9 ~--|| -----------------------------------------------------------------------|| -----------------------------------------------------------------------|| -----------------------------------------------------------------------|
|----------------------------------------------------------|| ---------- 10-- 10b12 ~-- 15b17-- 12 ----------------- 15p10 ~--|| ------- 7 -------------------------- 12-- 14-- 14b16 -----------||-- 7s9 -----------------------------------------------------|| ----------------------------------------------------------|| ----------------------------------------------------------|
\ 1|--------------------------------------------------------------------------|| ---------- 10-- 10b12 ~-- 15b17r15-- 15b17-- 12 ------------- 15 ------- 10-- 15p10 ~-|| ------- 7 ----------------------------------- 12-- 14b16 ------ 14 ~ -------------||-- 7s9 ---------------------------------------------------------------------|| --------------------------------------------------------------------------|| --------------------------------------------------------------------------|
|-----------------------------------------------------------------|| --------------------------- 15b17r15-- 12 ----------<15>p10--<10>~--||-- 14b16-- 14-- 12--<14>b16 ~ ---------------- 12-- 14 ------------------|| -----------------------------------------------------------------|| -----------------------------------------------------------------|| -----------------------------------------------------------------|
|------------------------------------------------------------------------||-- 15b17r15-- 12 -------------------------------------- 5s8-- 7 --------------|| ---------------- 12-- 14b16--<14>--<14>--<14>--<14>~ ---------- 9-- 7-- 7s9 ~--|| ------------------------------------------------------------------------|| ------------------------------------------------------------------------|| ------------------------------------------------------------------------|
2nd style (Change back to neck pick-up) \ 1/ \ 1/|---------------------------------------------------------------------------||-- 15s12-- 12s10-- 10s8-- 8s12-- 12s5 ~-- 3 ~-- 3s15-- 15s12-- 12s10-- 10s8-- 8s12-- 12--|| ---------------------------------------------------------------------------|| ---------------------------------------------------------------------------|| ---------------------------------------------------------------------------|| ---------------------------------------------------------------------------|
|----------------------------------------------------------------------------|| -------------- 15s12-- 12s10-- 10s8-- 8s12-- 10s8s12 ~-- 10s8s12 ~-- 15s5s3 ~ -3 h5-- 3 ~-||-- 7s9s7s9s7 ~ ----------------------------------------------------------------|| ----------------------------------------------------------------------------|| ----------------------------------------------------------------------------|| ----------------------------------------------------------------------------|
|------------------------------------------------- 13s12-- 10-- 10s12-- 12s8--||-- 15b17-- 15 ~-- 15s17s15-- 15s17s15-- 12h13p12s10s8-- 13s12-- 10-- 10s12-- 12s8--|| --------------------------------------------------------------------------|| --------------------------------------------------------------------------|| --------------------------------------------------------------------------|| --------------------------------------------------------------------------|
|-- 17 ~-- 14 ------------------------------------------------------------|| ----------- 15 --------------------------------------------------------|| --------------- 14s11-- 11tr12-- 11 -------------------------------------|| ---------------------------------- 14-- 12 -----------------------------|| ------------------------------------------ 14-- 10p7h9p7h9h10p9p7s10 ~--|| ---------------------------------------------------------------------|
|-- 19-- 17-- 15 -------------------------|| -------------- 19-- 17-- 15 ~--( 15 )s17 ~--|| -------------------------------------|| -------------------------------------|| -------------------------------------|| -------------------------------------|
|--------------------------------------------------------------------|| ---------- 10-- 10b12-- 10-10-<10>--<10>-<10>-- 15b17r15b17r15-- 12 ------|| ------- 7 -------------------------------------------------------- 12--||-- 7s9 ---------------------------------------------------------------|| --------------------------------------------------------------------|| --------------------------------------------------------------------|
\ 2.5 ~ \ 1.5/ \ 1.5/|------------------------------------------------------------------------|| ---------------------- 15 ~ -------------- 10-- 10b12-10-- 10b15-- 10b15-- 10 ~--||-- 14b16r14-- 12-14b16 ---------------- 7 -----------------------------------|| ------------------------------- 7s9 --------------------------------------|| ------------------------------------------------------------------------|| ------------------------------------------------------------------------|
|--------- 12 ----------------- 15 -----------------------------------||-- 15b17 ------ 15p12 -------------- 15 -------------------- 12h13p12--|| -------------------- 14b16 ~ ---------- 14b16r14-14 ~-- 15 -------------|| -----------------------------------------------------------------|| -----------------------------------------------------------------|| -----------------------------------------------------------------|
\ 4 ~|---------------------------------------------------------------------|| -------------------------- 13-- 12 -------------------------------------||-- 15-- 14-- 13-- 12-- 14-- 15 ---------- 15p14p12 ------ 12-- 12h14-12-- 14 \ ~--|| -------------------------------------------- 14 -----------------------|| ---------------------------------------------------------------------|| ---------------------------------------------------------------------|
|--------- 12 ------------------------------------------------------------||-- 15b17 ------ 15p12-- 15b17-- 15 ------------------------------------------|| --------------------------- 14b16r14-- 12 -------- 12 ----------------------|| ----------------------------------------- 14 ~ ------- 14-- 12 --------------|| ----------------------------------------------------------- 14s12-10 ~--|| -----------------------------------------------------------------------|
|-------------------------------------------------------|| -------------------------------------------------------||-- \ 14-- 12 ------ 14-- 12b14r12 ~-- 12 ------ 14-- 12b14r12 ~--|| ----------- 14 --------------------- 14 -------------------|| -------------------------------------------------------|| -------------------------------------------------------|
|----------------------------------------------------------------|| ----------------------------------------------------------------||-- 12-- 14b16r14--<14>-<14>-- 14b16r<14>~-- 14s12-- 12 ------ 14b16 ~--|| --------------------------------------------------- 14 -----------|| ----------------------------------------------------------------|| ----------------------------------------------------------------|
|--------------------------------------------------------------------------|| --------------------------------------------------------------------------||-- 12-- 11 ------------------------------------------------------------------|| ---------- 14-- 12 ---------------------- 12s14-- 12 ---------------------------|| ------------------ 14s12-- 10 ---------------------- 14-- 12 -------------------|| ----------------------------- 12-- 10 ~ --------------------- 14s12-- 10-- 12 ~--|
\ 1 ~ ~ ~|--------------------------------------------------------------------------||-- 15-- 15h20-- 19 ~-- 19-- 17s15-- 15s17-- 17 ~-- 15s12-- 12s14 ~-- 14s12-- 12 ---------|| ------------------------------------------------------------------ 14-14 ~--|| --------------------------------------------------------------------------|| --------------------------------------------------------------------------|| --------------------------------------------------------------------------|
(Select scrape)|---------- 10-- 12-- 14-- 15-- 17s19s22-- 22 ~ -------------|| ------ 12 ---------------------------------- x \ --------||-- 14 -------------------------------------- x \ --------|| ------------------------------------------ x \ --------|| ----------------------------------------------------|| ----------------------------------------------------|
* Rattle whammy bar backwards and forwards repeatidly whilst choosing notes * |-- 17b19-- 17s15-- 17 ~-- 17 ~-- 17 ~-- 17 ~-- 17 ~-- 17 ~-- 17 ~-- 17s15-- 15 --------|| -------------------------------------------------------------- 17 ~--|| --------------------------------------------------------------------|| --------------------------------------------------------------------|| --------------------------------------------------------------------|
* Rattle whammy bar backwards and forwards as well as hammer on notes with worrying hand *|--------------------------------------------------------------------------||-- 15h17 ~-- 15h17 ~-- 15h17 ~-- 15 ~-- 15 ----------------------------------------|| ------------------------------------ 16p14p12 ------- 9s14 ~-- 12-- 14 ~-- 12h14 ~-|| ---------------------------------------------- 15 ~ -------------------------|| --------------------------------------------------------------------------|| --------------------------------------------------------------------------|
|TP====================================|| ------------------ 12-- 14-- 15-- 17-- 19-- 22-- 24b26-- 24b26-- 24b26 ~ --------|| ---------- 12-- 15 ------------------------------------------------ 19 \--||-- 12-- 14 --------------------------------------------------------------|| ----------------------------------------------------------------------|| ----------------------------------------------------------------------|
|----------- 13h19p13 ---------- 13-13h19p13 ------------- 13 -------------- 13h19-||-- 13h17p13 ---------- 13h17p13 ------------- 13h17p13-13-- 13h17-- 17 --------|| -------------------------------------------------------------- 17 -----------|| ---------------------------------------------------------------------------|| ---------------------------------------------------------------------------|| ---------------------------------------------------------------------------|
|-- 13-13 ---------------------------- 13-13 ----------|| -------- 13h17p13-- 13h17-- 17-13 ------- 17-13--|| ----------------- 17 ------- 17 ----------------------|| --------------------------------------------------|| --------------------------------------------------|| --------------------------------------------------|
|-- 22p17 ---------- 17-19p17 ---------- 17-22p17 ---------- 17-19p17 ----------|| --------- 20-17h20 ---------- 20-17h20 ---------- 20-17h20 ---------- 20-17h20-|| ------------------------------------------------------------------------|| ------------------------------------------------------------------------|| ------------------------------------------------------------------------|| ------------------------------------------------------------------------|
|-- 17-22p17 ---------- 17-19p17 ---------- 17-22p17-19p17 ----------------------|| ----------- 20-17h20 ---------- 20-17h20 ---------------- 20p17 ----------------|| ----------------------------------------------------------- 22-20p18 -------|| -------------------------------------------------------------------- 19p15-|| --------------------------------------------------------------------------|| --------------------------------------------------------------------------|
|--------------- 17p15-- 17p15-- 17-17p15 ------|| ------------ 17 ------- 17 ------- 17 ---------- 17--|| -----------------------------------------------|| -----------------------------------------------||-- 17-15h17 -------------------------------------|| -----------------------------------------------|
|-- 17s15 ------------------------- 12 ------------------------------------------|| --------- 15p12 ------------ 15b17-- 15p12 ------------------------------------|| --------------- 14p12 --------------------- 14p12 -------- 12 --------------------|| --------------------- 14 ~ ----------------------- 14p12 ----- 14p12 --------------|| --------------------------------------------------------------- 14s12-10 -----|| ------------------------------------------------------------------------ 12 ~-|
|---------------------------------------------------------------------------||-- 16p15p14-16p15p14-16p15p14-16p15p14-16p15p14-16p15p14-16p15p14-16p15p14--|| ---------------------------------------------------------------------------|| ---------------------------------------------------------------------------|| ---------------------------------------------------------------------------|| ---------------------------------------------------------------------------|
* Repeat 3 times ================*|------ 7-10p7s22p19 ----------------------- 7-10p7s22p19 ------------------||-- 8 -------------- 20 -------- 20s8 ------ 8 -------------- 20 ------- 20s15--||-- 9 ------------------- 21 ------------- 9 ------------------- 21 ------------|| ------------------------- 19 --------------------------------- 19 ---------|| -----------------------------------------------------------------------|| -----------------------------------------------------------------------|
|-------------- 14-17p14-10p7 -------------------------------|| ----------- 15 --------------- 8 -----------------------------|| -------- 14 -------------------- 9-- 9s4-- 4-- 2 --------------|| ----- 16 ------------------------- 7 ------------ 4-- 2 ---------||-- 17 ----------------------------------------------- 2 ~ -----|| ----------------------------------------------------------|
|--------- 7 ---------- 7 -------------------------------------------------------||-- 4-2s4 ----- 10b12 ~-- 10-8-7h8p7 --------------------------------------------|| --------------------------------- 9p7-- 6-7-6-- 9s4-- 4b5-- 7p5p3 ----------------|| ------------------------------------------------------------ 7p5p3 -----------|| ----------------------------------------------------------------- 7p5p3 ------|| ----------------------------------------------------------------------- 3h5 ~-|
|-- 15b17-- 15b17r15-- 12 -------------------------------------|| ----------------------- 15 ---------------------------------|| --------------------------- 14p12-- 11 ----------------------|| -------------------------------------- 12 ------------------|| ----------------------------------------- 12 ---------------|| -------------------------------------------- 14s12-10 ~ -0--|
/ 1/ 1|---------- 17-- 17b19 ~-- 22b24r22b24r22-- 19 ------------- 22-- 20s22-- 22-- 22 -----|| ------ 15 ---------------------------------- 20-- 22b24-- 22-- 20s22-- 22-- 22 -----||-- 16 -------------------------------------------------------------------- x \-|| ------------------------------------------------------------------------ x \-|| ---------------------------------------------------------------------------|| ---------------------------------------------------------------------------|
|------------------------------------------||-- 17b19r17-- 17b19 ~-- 17b20r17 ~-- 17-- 17 ~--|| ------------------------------------------|| ------------------------------------------|| ------------------------------------------|| ------------------------------------------|
|-- 15tr17-- 12tr15 ------------------ 15tr17-- 17tr19-- 19tr22-- 22tr24-- 22b24r22-|| ------------------ 12tr15-- 15tr17 -------------------------------------------|| ---------------------------------------------------------------------------|| ---------------------------------------------------------------------------|| ---------------------------------------------------------------------------|| ---------------------------------------------------------------------------|
|-- 17s19-- 19s22-- 22 ~--|| ----------------------|| ----------------------|| ----------------------|| ----------------------|| ----------------------|
|--------- 12s14-- 15s17-- 17-- 15h17p15-- 14h15-15-- 15-15-- 14p12-- 12s14-- 14p12--||-- 15b17 --------------------------------------------------------------------|| ---------------------------------------------------------------------------|| ---------------------------------------------------------------------------|| ---------------------------------------------------------------------------|| ---------------------------------------------------------------------------|
|----------------------------- 14-- 14-- 16-- 16-- 14 --------- 14--||-- 15-- 12-- 14-- 14-- 14 ~-- 14 ---------------------- 14-- 16 -----|| ------------------------------------------------------------|| ------------------------------------------------------------|| ------------------------------------------------------------|| ------------------------------------------------------------|
|-------------------------------------------------- 19b21 ~ -----||-- \ 17-- \ 19-- 17-- 15-- 17-- 19 ------------- 14s18s16 ~ -------------|| ---------------------------- 14s18s16 ~ ------------------------|| -------------------------------------------------------------|| -------------------------------------------------------------|| -------------------------------------------------------------|